0
SECTION
2
HEADER
9
$INSUNITS
70
4
9
$ACADVER
1
AC1014
9
$HANDSEED
5
FFFF
0
ENDSEC
0
SECTION
2
TABLES
0
TABLE
2
VPORT
5
8
100
AcDbSymbolTable
0
ENDTAB
0
TABLE
2
LTYPE
5
5
100
AcDbSymbolTable
0
LTYPE
5
14
100
AcDbSymbolTableRecord
100
AcDbLinetypeTableRecord
2
BYBLOCK
70
0
0
LTYPE
5
15
100
AcDbSymbolTableRecord
100
AcDbLinetypeTableRecord
2
BYLAYER
70
0
0
ENDTAB
0
TABLE
2
LAYER
5
2
100
AcDbSymbolTable
70
2
0
LAYER
5
50
100
AcDbSymbolTableRecord
100
AcDbLayerTableRecord
2
0
70
0
6
CONTINUOUS
0
ENDTAB
0
TABLE
2
STYLE
5
3
100
AcDbSymbolTable
70
1
0
STYLE
5
11
100
AcDbSymbolTableRecord
100
AcDbTextStyleTableRecord
2
STANDARD
70
0
0
ENDTAB
0
TABLE
2
VIEW
5
6
100
AcDbSymbolTable
70
0
0
ENDTAB
0
TABLE
2
UCS
5
7
100
AcDbSymbolTable
70
0
0
ENDTAB
0
TABLE
2
APPID
5
9
100
AcDbSymbolTable
70
2
0
APPID
5
12
100
AcDbSymbolTableRecord
100
AcDbRegAppTableRecord
2
ACAD
70
0
0
ENDTAB
0
TABLE
2
DIMSTYLE
5
A
100
AcDbSymbolTable
70
1
0
ENDTAB
0
TABLE
2
BLOCK_RECORD
5
1
100
AcDbSymbolTable
70
1
0
BLOCK_RECORD
5
1F
100
AcDbSymbolTableRecord
100
AcDbBlockTableRecord
2
*MODEL_SPACE
0
BLOCK_RECORD
5
1B
100
AcDbSymbolTableRecord
100
AcDbBlockTableRecord
2
*PAPER_SPACE
0
ENDTAB
0
ENDSEC
0
SECTION
2
BLOCKS
0
BLOCK
5
20
100
AcDbEntity
100
AcDbBlockBegin
2
*MODEL_SPACE
0
ENDBLK
5
21
100
AcDbEntity
100
AcDbBlockEnd
0
BLOCK
5
1C
100
AcDbEntity
100
AcDbBlockBegin
2
*PAPER_SPACE
0
ENDBLK
5
1D
100
AcDbEntity
100
AcDbBlockEnd
0
ENDSEC
0
SECTION
2
ENTITIES
0
LINE
5
100
100
AcDbEntity
8
0
100
AcDbLine
10
1.2246467991473535e-15
20
20
30
0
11
-1.2246467991473535e-15
21
-20
31
0
0
LINE
5
101
100
AcDbEntity
8
0
100
AcDbLine
10
-2.3899999999999983
20
19.856684013198183
30
0
11
-2.3899999999999895
21
12.000000000000002
31
0
0
LINE
5
102
100
AcDbEntity
8
0
100
AcDbLine
10
2.3900000000000006
20
19.85668401319818
30
0
11
2.3899999999999912
21
12.000000000000002
31
0
0
LINE
5
103
100
AcDbEntity
8
0
100
AcDbLine
10
-2.3899999999999895
20
12.000000000000002
30
0
11
2.3899999999999912
21
12.000000000000002
31
0
0
LINE
5
104
100
AcDbEntity
8
0
100
AcDbLine
10
-17.320508075688792
20
9.9999999999999734
30
0
11
17.320508075688789
21
-9.9999999999999734
31
0
0
LINE
5
105
100
AcDbEntity
8
0
100
AcDbLine
10
-17.281081518405227
20
-10.068288800382616
30
0
11
17.359934632972074
21
9.9317111996178191
31
0
0
LINE
5
106
100
AcDbEntity
8
0
100
AcDbLine
10
-18.391392790350004
20
7.8585412915541886
30
0
11
-11.587304845413273
21
3.9301992849551799
31
0
0
LINE
5
107
100
AcDbEntity
8
0
100
AcDbLine
10
-16.00139279034995
20
11.998142721643914
30
0
11
-9.1973048454132851
21
8.0698007150447815
31
0
0
LINE
5
108
100
AcDbEntity
8
0
100
AcDbLine
10
16.048901267528709
20
11.934520019888339
30
0
11
9.236731402696627
21
8.0015119146625384
31
0
0
LINE
5
109
100
AcDbEntity
8
0
100
AcDbLine
10
18.422462315450094
20
7.7854275563915776
30
0
11
11.626731402696569
21
3.8619104845729089
31
0
0
LINE
5
110
100
AcDbEntity
8
0
100
AcDbLine
10
18.391392790350004
20
-7.858541291554177
30
0
11
11.587304845413271
21
-3.9301992849551786
31
0
0
LINE
5
111
100
AcDbEntity
8
0
100
AcDbLine
10
16.001392790349946
20
-11.998142721643923
30
0
11
9.1973048454132922
21
-8.069800715044785
31
0
0
LINE
5
112
100
AcDbEntity
8
0
100
AcDbLine
10
2.3900000000000139
20
-19.856684013198183
30
0
11
2.3899999999999899
21
-12.000000000000002
31
0
0
LINE
5
113
100
AcDbEntity
8
0
100
AcDbLine
10
-2.3900000000000161
20
-19.856684013198183
30
0
11
-2.3899999999999908
21
-12.000000000000002
31
0
0
LINE
5
114
100
AcDbEntity
8
0
100
AcDbLine
10
-15.953609200883221
20
-12.061606587245929
30
0
11
-9.1578782881297727
21
-8.1380895154273283
31
0
0
LINE
5
115
100
AcDbEntity
8
0
100
AcDbLine
10
-18.360048152961625
20
-7.9314961905639736
30
0
11
-11.547878288129796
21
-3.9984880853377476
31
0
0
LINE
5
116
100
AcDbEntity
8
0
100
AcDbLine
10
-11.587304845413273
20
3.9301992849551799
30
0
11
-9.1973048454132851
21
8.0698007150447815
31
0
0
LINE
5
117
100
AcDbEntity
8
0
100
AcDbLine
10
9.236731402696627
20
8.0015119146625384
30
0
11
11.626731402696569
21
3.8619104845729089
31
0
0
LINE
5
118
100
AcDbEntity
8
0
100
AcDbLine
10
11.587304845413271
20
-3.9301992849551786
30
0
11
9.1973048454132922
21
-8.069800715044785
31
0
0
LINE
5
119
100
AcDbEntity
8
0
100
AcDbLine
10
2.3899999999999899
20
-12.000000000000002
30
0
11
-2.3899999999999908
21
-12.000000000000002
31
0
0
LINE
5
120
100
AcDbEntity
8
0
100
AcDbLine
10
-9.1578782881297727
20
-8.1380895154273283
30
0
11
-11.547878288129796
21
-3.9984880853377476
31
0
0
ARC
5
121
100
AcDbEntity
8
0
100
AcDbCircle
10
0
20
0
30
0
40
20.000000000000004
100
AcDbArc
50
96.863247047117682
51
143.13675295288226
0
ARC
5
122
100
AcDbEntity
8
0
100
AcDbCircle
10
0
20
0
30
0
40
20.000000000000004
100
AcDbArc
50
36.635772846910577
51
83.136752952882318
0
ARC
5
123
100
AcDbEntity
8
0
100
AcDbCircle
10
0
20
0
30
0
40
20.000000000000007
100
AcDbArc
50
-23.136752952881988
51
22.909169999156592
0
ARC
5
124
100
AcDbEntity
8
0
100
AcDbCircle
10
0
20
0
30
0
40
20.000000000000007
100
AcDbArc
50
276.86324704711774
51
323.13675295288226
0
ARC
5
125
100
AcDbEntity
8
0
100
AcDbCircle
10
0
20
0
30
0
40
20.000000000000004
100
AcDbArc
50
156.86324704711799
51
203.36422715308939
0
ARC
5
126
100
AcDbEntity
8
0
100
AcDbCircle
10
0
20
0
30
0
40
20.000000000000004
100
AcDbArc
50
217.09083000084505
51
263.13675295288232
0
CIRCLE
5
127
100
AcDbEntity
8
0
100
AcDbCircle
10
0
20
0
30
0
40
2.5
0
ENDSEC
0
SECTION
2
OBJECTS
0
DICTIONARY
5
C
100
AcDbDictionary
3
ACAD_GROUP
350
D
3
ACAD_MLINESTYLE
350
17
0
DICTIONARY
5
D
100
AcDbDictionary
0
DICTIONARY
5
1A
330
C
100
AcDbDictionary
0
DICTIONARY
5
17
100
AcDbDictionary
0
ENDSEC
0
EOF
